5 décembre 2008

Echoes from Spain (orig. Django Reinhardt)




If you want to help out on this tab, feel free to leave comments. Work in progress.


Echoes from Spain
e|-------------0---------------0----------------------------------|
B|---------------0-0-------------0---0----------------------------|
G|---------1-------1---------2-------2----------------------------|
D|-------2---------2-------3---------3----------------------------|
A|-----2-----------2-----3-----------3----------------------------|
E|-0-0-------------0-0-0-------------0----------------------------|

e|-------------0---------------0----------0-----------------------|
B|---------------0-0-------------0---0----0-----------------------|
G|---------1-------1---------2-------2----1-----------------------|
D|-------2---------2-------3---------3----2-----------------------|
A|-----2-----------2-----3-----------3----2-----------------------|
E|-0-0-------------0-0-0-------------0----0-----------------------|

e|---------0-------------0---------0-------------0----------------------------|
B|---0-1-3---3-1-3-0-----0---0-1-3---3-1-3-0-----0----------------------------|
G|-----------------------2-----------------------2----2--2--4-----2---0---2---|
D|-----------------------3-----------------------3----------------------------|
A|-----------------------3-----------------------3----------------------------|
E|-----------------------0-----------------------0-------------3--------------|

e|------------------------------------------------------------|
B|------------------------------------------------------------|
G|-----------------3---------4---------3--------4-------------|
D|---2---6-------1---------2---------1--------2---------------|
A|---2---------1---------2---------1--------2-----------------|
E|---0-------0---------0---------0--------0-------------------|

1 commentaire:

David Kahan a dit…

third line should read :
e|---------0---------------0---------0----------------0----------------------------|
B|---0-1-3---1-3-1-0-0-0---0---0-1-3---1-3-1-0-0-0----0----------------------------|
G|------------------2------2------------------2-------2----2--2--4-----2---0---2---|
D|-------------------------3--------------------------3----------------------------|
A|-------------------------3--------------------------3----------------------------|
E|-------------------------0--------------------------0-------------3--------------|