9 décembre 2009

Posterous

J'ai trouvé bien mieux que Blogger comme platforme de blog. Après quelques jours d'utilisation je suis totalement conquis par Posterous et la possiblité de blogger simplement par email, ne plus se soucier de l'upload de photos, de vidéos, de liens... Posterous fait tout à ma place. Sans doute moins "canif suisse" que Blogger ou Wordpress, mais tellement simple d'utilisation.Allez lire leur FAQ et vous aurez compris.

5 décembre 2008

Echoes from Spain (orig. Django Reinhardt)




If you want to help out on this tab, feel free to leave comments. Work in progress.


Echoes from Spain
e|-------------0---------------0----------------------------------|
B|---------------0-0-------------0---0----------------------------|
G|---------1-------1---------2-------2----------------------------|
D|-------2---------2-------3---------3----------------------------|
A|-----2-----------2-----3-----------3----------------------------|
E|-0-0-------------0-0-0-------------0----------------------------|

e|-------------0---------------0----------0-----------------------|
B|---------------0-0-------------0---0----0-----------------------|
G|---------1-------1---------2-------2----1-----------------------|
D|-------2---------2-------3---------3----2-----------------------|
A|-----2-----------2-----3-----------3----2-----------------------|
E|-0-0-------------0-0-0-------------0----0-----------------------|

e|---------0-------------0---------0-------------0----------------------------|
B|---0-1-3---3-1-3-0-----0---0-1-3---3-1-3-0-----0----------------------------|
G|-----------------------2-----------------------2----2--2--4-----2---0---2---|
D|-----------------------3-----------------------3----------------------------|
A|-----------------------3-----------------------3----------------------------|
E|-----------------------0-----------------------0-------------3--------------|

e|------------------------------------------------------------|
B|------------------------------------------------------------|
G|-----------------3---------4---------3--------4-------------|
D|---2---6-------1---------2---------1--------2---------------|
A|---2---------1---------2---------1--------2-----------------|
E|---0-------0---------0---------0--------0-------------------|

20 juin 2008

XX au Rideau Rouge

Hier j'ai assisté au concert de XX au Rideau Rouge à Lasne. Ce n'est pas par hasard puisque Samir dont j'ai déjà parlé (ici et ici) fait partie de ce trio (voir leur Myspace pour tous les détails et la vidéo).
Un concert intimiste, décontracté et de très haute qualité dans une ambiance pleine de générosité et de joie.
La voix de la chanteuse Séverine m'a rappelé la tessiture et le timbre de Fairground Attraction, une voix claire, justement dosée, précise qui ferait rougir bien des "voix" plus connues.

J'attends avec impatience le CD pour me baigner à nouveau dans cet univers.

18 mai 2008

Django Folies 2008


Hier je me suis retrouvé sur le parvis de l'église de Liberchies, assistant pour la première fois au festival Django-Folies qui en était à sa sixième édition.

La pluie en avait sans doute effrayé plus d'un, mais je dirais qu'un bon milliers de personnes étaient présentes.
C'était pour moi la première occasion d'entendre du jazz inspiré, voire franchement, manouche.
J'ai vu deux formations très différentes. D'abord du pur, du dur, avec le Chriss Campion Ensemble, avec Frangy Delporte entre autres.



Chriss Campion et Frangy Delporte (voir une belle galerie de photos de Frangy ici) assurent les parties solos qui s'enchainent à des rythmes de plus en plus soutenus, et livrent ce que le public est venu chercher; du jazz manouche. Je regrette le peu de contacts qu'ils ont eus avec le public.

Ensuite, Les Doigts de L'Homme de l'Ardèche ont pris la relève. A nouveau, les musiciens sont hors pairs et maîtrisent leur instruments de façon impressionnante.


Le répertoire est plus varié, et je vais dire qu'il est tantôt manouche, tantôt inspiré manouche et librement agrémenté de chant, de percus,etc...
Sur un morceau intitulé "Identité Nationale" Olivier Kikteff nous fait une intro de morceau à l'Oud marocain impréssionant;


Sur un autre morceau, dont je n'ai pas capté le titre, le mélange de gammes indiennes et blues, m'ont fait penser un moment entendre Ry Cooder dans sa période avec V.M. Bhatt
Ces quatres garçon prennent visiblement énormément de plaisir à être sur scène, et le public le leur a bien rendu.

Django Folies c'est les concerts sur la scène centrale, mais aussi un engouement pour la culture manouche/rom (nombreuses expositions) et des boeufs informels dans l'espace 'nuages';


Vivement Liberchies 2009...

16 avril 2008

Django à Liberchies



Les 17 et 18 mai prochains se tient pour la sixième fois le festival annuel "Django à Liberchies". Pour ceux qui l'ignorent, Django Reinhardt est né dans ce petit village en 1910 (une biographie plus fournie et anecdotique ici ).
Ce sera mon premier concert inspiré manouche; j'ai hâte d'en découvrir l'ambiance.

Ce qui est dommage c'est que çà tombe le même weekend que le Spring Blues festival d'Ecaussinnes. Vivre c'est choisir....

12 mars 2008

Triangle infernal

Je viens de terminer La tectonique des sentimens de E-E.S., qui se lit le temps nécéssaire à un aller-retour Bruxelles-Paris.
Internet regorge de résumés sur ce livre donc je ne vais pas m'attarder à l'histoire. Ce que je retiens moi de ce livre c'est la mise en scène dans ce livre de ce que j'avais découvert il y a quelques années lors d'un formation comme étant le triangle infernal.Le triangle infernal est une pièce dans laquelle trois rôles sont distribués ; le bourreau, la victime et le sauveur.
Lorsque des relations entre personnes s'enlisent dans ce schéma l'atmosphère devient rapidement irrespirable. D'abord, le bourreau qui met la pression, provoque, choque, impose, détourne. Ensuite, la victime complaisante, plaignante, ne trouvant pas de solution, acceptant le status quo, vivant en fonction des autres. Et enfin le sauveur; omniprésent, racontant ses sauvetages nombreux, cherchant perpetuellement à se valoriser sur la situation des autres. Ce que d'après moi rend ce livre intéressant c'est que ces rôles archétypes ne sont pas forcément distribués sur différents personnages, mais plutôt cumulé par une même personne ; Diane. Et le livre montre bien que ces stratégies-pièges ne mènent nulle part et sont a fuir.

8 mars 2008

L'interprétation de Mangova

J'ai été indirectement invité à assister à un concert de Plamena Mangova, pianiste lauréate du dernier concours Reine Elizabeth, dans le palais de Plume à Ittre (rien que la salle vaut le détour)
J'ai ainsi pu découvrir des variations de Beethoven, et surtout à quelques lieds de Schubert transcrits par Liszt pour le piano. Mangova a aussi joué une autre transcription, un extrait de Tristan et Iseult; ce morceau là était tout simplement envoutant. En plus la couleur impressionniste que Mangova a donné à ce morceau était tout simplement fabuleux.
J'ai donc eu une belle soirée musicale, close par un cocktail dinatoire des plus sympathiques.

25 février 2008

Calendrier 2008

Plutôt qu'une bête carte de voeux, j'ai beaucoup apprécié le calendrier que m'a offert un partenaire de notre boîte. Je l'ai reçu mi-février, mais c'est pas grave.
Un cadeau utile et -très- personnalisé !



Je mettrai les autres photos le mois concerné...